Chitarra/Assoli

Wikibooks, manuali e libri di testo liberi.
Jump to navigation Jump to search

Questa pagina è uno stub Questo modulo è solo un abbozzo. Contribuisci a migliorarlo secondo le convenzioni di Wikibooks

Assoli[modifica]

Ecco un'altra specie di canzoniere, di raccolta stavolta dedicato agli assoli di chitarra.


Metallica[modifica]

Nothing else matters[modifica]

                    x3
e-----------0----------------7-----7------------------7-p-0---------------|
B--------0----0--------------------------0-------------------------0------|
G-----0----------0---------------------------0-------------------------0--|
D-------------------------------------------------------------------------|
A-------------------------------------------------------------------------|
E-0--------------------------------0--------------------------------------|


e--------------7-----8------7-8-7-5-------7------5-3-2-0---|
B--------------0-----0--------------------0----------------|
G------0---------------------------------------------------|
D----------------------------------------------------------|
A----------------------------------------------------------|
E---0------------------------------------------------------|

tieni Am7                                               Am7x2    C tieni
e--------------------2-p-0--------------------------0---0--------0-------------
B------5--------5---------------5---------------5-------5--------5--------5----
G----------5-------------------------5-------5----------5--------5------5----5-
D------------------------------------------------------------------------------
A------0----------------------------------0-------------0--------3---3---------
E------------------------------------------------------------------------------

                            C           C9
e--3-p-0--------------------0-----------0----------------------|-0----5-p-0----
B-------------5-------------5-----------7---------------7------|---------------
G-------------------5-------5-----------7---------7---------7--|----------------
D--------------------------------------------------------------|-----------------
A---------------------------3-----------5----5-----------------|--------------
E--------------------------------------------------------------|-----------------

----------------------------0---------------------------------
-------7-p-5-p-0----------------------------------------------
-------------------------4------------------------------------
--------------------------------------------------------------
--------------------------------------------------------------
-------------------------------------------0------------------

  H        H           H                             x 3
-----------------------12------------------------------0-----------------
-----------12-----------------0---------------------0----0---------------
--12-------------------------------------0----------0----------0---------
-------------------------------------------------------------------------
-------------------------------------------------------------------------
------------------------------------------------0------------------------

---------------------------------------7---------------------
---------------------------------------8-------------------7
--------------------------------9----------------------------7
--------------------------9-------------------------------7------
------------------7---------------------------------5------------
---------0-------------------------------------------------------

------------------------------------------------------------------7----------
------------------------------5-----------------------------------8----------
------------------------------5---------------------------9------------------
----------------5------------------------------------9-----------------------
------3---------------------------------------7------------------------------
--------------------------------------0--------------------------------------


----------5----------------------3---------------
----------------7-----------------------5--------
-------------------7------------------------5----
----------7----------------------5---------------
----5-----------------------3--------------------
-------------------------------------------------

-----------3-----------------
-----------------3-----------
----------4----------4-------
----------------------5------
-----------------------------
----3------------------------

---------2-----------------
---------------4-----------
---------4----------4-----
---------------------4-----
----2----------------------
----------------------------


------------------3--------0--------
--------------0----------------0----
---------0------------0-------------
-------------------------------------
-------------------------------------
----0-------------------------------

E----2-------3----------------0--------------------------
B-----------------3-----------------3--------------------
G-----------------------0-----------------0--------------
D----0---------------------------------------------------
A--------------------------------------------------------
E-------------------------------------------------3--2---

E----3------------------------------3-------7----------------
B---------3-------------------------3-------7-----------7---
G---------------0-------------0-------------8------8--------
D---------------------------------------------7----------------
A---------------------------------------------------------------
E-----------------------3--------------------------------------

E----------------0----------------------------0---------------
B------------0-------0-------------------0--------------------
G--------0--------------0-----------0-------------------------
D-------------------------------------------------------------
A-------------------------------------------------------------
E----0--------------------------0---------------------3--2----


E----0------0--------2---------------
B----1------2--------3---------------
G----0------2--------2--(x3)----
D----2------2--------0---------------
A----3------0------------------------
E------------------------------------

E----3----2----0----2------
B----3----3----3----3------
G----2----2----2----2------
D----0----0----0----0------
A--------------------------
E--------------------------

E----2------2---2------0----
B----3------3---3------0----
G----2------2---2------0----
D----0------0---0------2----
A------------------------2--
E------------------------0--

le note al 12° tasto sono armonici
E----15-----12-----17----12----19----12----20----12---
B----17-----12-----19----12----20----12----22----12---
G-----------------------------------------------------
D-----------------------------------------------------
A-----------------------------------------------------
E-----------------------------------------------------


E----3----------5----------7---------8------------
B----5----0----7----0----8----0----10----0----
G----------------------------------------------------
D----------------------------------------------------
A----------------------------------------------------
E----------------------------------------------------

E----8--------------8----------------
B---------5--------------5-----------
G--------------5---------------5-----
D------------------------------------
A------------------------------------
E------------------------------------

E-------------------8---------------
B-------------5---------5-----------
G--------5-------------------5\-----
D-----------------------------------
A----0------------------------------
E-----------------------------------

E-----------------------------------14-----------------
B----/5---------------5------------------15------------
G---------5----------------5--------------------14-----
D--------------5---------------------------------------
A------------------------------------------------------
E------------------------------------------------------

E----0-----0-------------0------0----------------------0----------------
B----12---12-----------12-----12---------------0---------0----------
G-------------------0--------------------------0--------------------0----
D---------------------------------------------------------------------------
A---------------------------------------------------------------------------
E------------------------------------------0--------------------------------

E------------------------------------------
B------------------------------------------
G----12----12/14-----12----14--14br12------
D------------------------------------------
A------------------------------------------
E------------------------------------------

E--------------------------------------------------------------
B----15-------15-----------------------------------------------
G----14b-----14b---12-----------------------------12-----------
D-----------------------------14----12----12h14---------14-----
A--------------------------------------------------------------
E--------------------------------------------------------------

E----------------------------------------------------------------------------------
B----15-----15------------------------------------------------------------------
G----14b---14b---12--14--12---11--12--11--------11------------------
D-------------------------------------------------------14---------12---14----
A----------------------------------------------------------------------------------
E----------------------------------------------------------------------------------


E-----------------------------12----------------12--------------------------------
B-----------------------12----------------12----------15p14p12-----14p12----------
G--12-14-12 -14b--------------14b----------------------------------------------14-
D---------------------------------------------------------------------------------
A---------------------------------------------------------------------------------
E---------------------------------------------------------------------------------

E-------------------------------------------------------
B------------------------15-----15-------------------
G----12--14--12-----14b----14b---14---12----
D-------------------------------------------------------
A-------------------------------------------------------
E-------------------------------------------------------


E----14--15-----------15--14--17--------15---14h15p14----------15p14----------
B------------------------------------------------------------------------------------------------
G----------------16---------------------------------------------------16---------------16---
D------------------------------------------------------------------------------------------------
A------------------------------------------------------------------------------------------------
E------------------------------------------------------------------------------------------------

E----------------------------------------------------------------------12---
B------------------------15------------------------------------12----------
G----12--14-12------14b---14p12----------12--14b----------------
D--------------------------------------------14------------------------------
A------------------------------------------------------------------------------
E------------------------------------------------------------------------------

E-----------------------------------------------------------------
B----15b-----15p12-------15b---------12h15p12-------
G-----------------------------------------------------------------
D------------------------------------------------------------------
A------------------------------------------------------------------
E------------------------------------------------------------------

E----------------------------
B----/7--------5h7p5-----
G----------------------------
D----------------------------
A----------------------------
E----------------------------

E---------------0-----------------------------0-------7---
B-----------0------0---------------------0-------0--------
G-------0--------------0------------0---------------------
D------------------------------------------------------------
A------------------------------------------------------------
E----0---------------------------0--------------------------

E----7------------7p0-------------------------7---8-----7p8--7h8p7p5----7-5\--0--0--
B-------------0------------0--------------------0---0-------------------------------------------
G---------0---------------------0-----------0----------------------------------------------------
D---------------------------------------------------------------------------------------------------
A---------------------------------------------------------------------------------------------------
E----0-----------------------------------0---------------------------------------------------------


Led zeppelin[modifica]

Stairway to heaven[modifica]

|----5---------------------|----8-8-8b--8p5------8-10p8--------------|
|------8-5-----------------|-8b-------------8/10--------10-8----8h10-|
|-7b-------7-5---7-5-------|---------------------------------10------|
|--------------7-----7-5---|-----------------------------------------|
|------------------------8-|-----------------------------------------|
|--------------------------|-----------------------------------------|



|------5-----------------------------------|
|----5---8p5-------------------------------|
|-7b---------7-5---7-5-----------5---5-5p0-|
|----------------7-----7-5---5-7---7-------|
|--------------------------7---------------|
|------------------------------------------|



|-5--------------------------|
|---8-5----------------------|
|-------7-5---7-5------------|
|-----------7-----7-5-7-5----|
|-------------------------8v-|
|----------------------------|



|--------------------|-------------------|
|--------------------|----------------13-|
|--------------------|-------12-12h14----|
|-----10h12p10----10-|-12/14-------------|
|-/12----------12----|-------------------|
|--------------------|-------------------|



|--------------------|-15b-15p13-|
|-15b-15p13-15p13----|-----------|
|-----------------14-|-----------|
|--------------------|-----------|
|--------------------|-----------|
|--------------------|-----------|


Repeat this 12 times
|----------------|
|-15br-p13----13-|
|----------14----|
|----------------|
|----------------|
|----------------|



|-15b-12-15-12--------------------------------15-------------|
|--------------15-13----13-15-13----13-15-15b----15br-p13----|
|--------------------14----------14-----------------------14-|
|------------------------------------------------------------|
|------------------------------------------------------------|
|------------------------------------------------------------|



|-----15-17p15-------------------------|
|-15b----------15br-13-15-13----13-15b-|
|----------------------------14--------|
|--------------------------------------|
|--------------------------------------|
|--------------------------------------|



|-------------------------|
|-------------------------|
|-14b-14b-14-12-14-12-14v-|
|-------------------------|
|-------------------------|
|-------------------------|



|-----------------------------|
|-----5-------5---------------|
|-10b---7-5-7---7-5-7-8-7-5---|
|---------------------------7-|
|-----------------------------|
|-----------------------------|


      |- 6 times --|
|-----|--20p17-----|-----|
|-/17-|--------17--|-20b-|
|-----|------------|-----|
|-----|------------|-----|
|-----|------------|-----|
|-----|------------|-----|