Chitarra/Esercizi per velocizzarsi

Wikibooks, manuali e libri di testo liberi.

Inkscape icons free-hand-draw.svgEsercizio 3[modifica]

Pentatoniche Imparare a eseguire velocemente le pentatoniche, anche come parte dello studio di teoria musicale, è un buon esercizio per velocizzarsi. Quella più basilare è la prima di La minore.

e|-------------------3-5-3--------------------------------------|
B|---------------3-5-------5-3----------------------------------|
G|-----------2-5---------------5-2------------------------------|
D|-------2-5-----------------------5-2--------------------------|
A|---3-5-------------------------------5-3----------------------|
E|-5---------------------------------------5--------------------|


Inkscape icons free-hand-draw.svgEsercizio 4[modifica]

Mira ad aumentare la velocità di esecuzione e la coordinazione delle due mani. Eseguire il seguente esercizio e ritorno.


 e---------------------------------------------------------|
 B---------------------------------------------------------|
 G---------------------------------------------------------|
 D-----------2-3-------------------------------------------|
 A-----------2--5------------------------------------------|
 E-----------3---------------------------------------------|

Inkscape icons free-hand-draw.svgEsercizio 5[modifica]

Inkscape icons free-hand-draw.svgEsercizi con i patterns[modifica]

Studi[modifica]

Si consiglia di provare gli assoli di molti generi musicali, cominciando con qualcosa di rock, passando poi al blues, jazz, hard rock e metal; con difficoltà sempre crescenti.